The Message

words and music by: Jay Mage Majusiak

tabs by: Jay Mage

            Am*

E----------------0-------------------|      |--0--------

B----2p0-----0---------2p0-----0-----|      |--1-------

G----------2-----------------2-----0-|      |--2---------

D------------------------------------|      |--0-------

A--0-----0-----0-----0-----0-----0---|      |--0---------

E------------------------------------|      |----------

 

A  A/E  A   A/E    A   A/E

I got the message

A  A/E  A   A/E    A   A/E

It got me thinking

           D (blues riff)  E 

I hear you walking        (by)

rest(bend)      (bend)

But baby NOT MY door

 

A  A/E  A   A/E    A   A/E

Your flying solo

A  A/E  A   A/E    A   A/E

To go all over

           D (blues riff)  E 

Youíll knock me over

rest(bend)      (bend)

But baby NOTHING more

---------------------------------------------------

(a g a b c) bass walk up

C                          G

Iíve been waiting here for so long now

        Am* Am* Am* Am*

(no vocals this measure)

        Am* Am* Am* Am*

I turn around girl

        Am* Am* Am* Am*

You canít be found girl

C                          G

Now Iím hearing it for the tenth time, Lord

        Am* Am* Am* Am*

(no vocals this measure)

        Am* Am* Am* Am*

You turn around girl

        Am* Am*  D

I canít be found girl

---------------------------------------------------

 

A  A/E  A   A/E    A   A/E

I got the message

A  A/E  A   A/E    A   A/E

It got me thinking

           D (blues riff)  E 

I hear you walking        (by)

rest(bend)      (bend)

But baby NOT MY door