The Grass

words and music by: Jay Mage Majusiak

tabs by: Jay Mage 

 

   G    Gadd2    G var     C   C9    oD   oD9   Ginv2 Ginv3 Ginv4 Ginv5

         G+2     

E|--3------3--------3------0----0-----x----x------3-----7-----10----15-|

B|--3------3--------3------1----3-----3----5------3-----8-----12----15-|

G|--0------0--------0------0----0-----0----0------4-----7-----12----0--|

D|--0------0--------0------2----2-----4----4------5-----0-----12----0--|

A|--2------0---------------3----3-----5----5------------------10----0--|

E|--3------3--------3-----------------------------------------------0--|

 

 

**e.g. F/F#/G

 E|--------3-x-x-3-3-x-x-3-3-------3-x-x-3-3-x-x-3-3-------------------|

 B|--------3-x-x-3-3-x-x-3-3-------3-x-x-3-3-x-x-3-3-------------------|

 G|--------0-x-x-0-0-x-x-0-0-------0-x-x-0-0-x-x-0-0-------------------|

 D|--------------0-------0---------------0-------0---------------------|

 A|--------------2-------2---------------2-------2---------------------|

 E|--1-2/3-------3-------3---1-2/3-------3-------3---------------------|

    do o last         in my mind

    ah a dore           uh huh

 

G

Seated down upon the grass

      G+2          Gvar            **F/F#/G

Itís funny how the things she says do last in my mind

G

Sweeter than the girl before

    G+2         Gvar              **F/F#/G

The girl I love nowí Ďs The one I adore

A            C         G   

Oooh baby, I ainít got nothing left to lose

A                     C    G

Aaah baby, youíre the only one that I would choose

                                 // /// / /////

E |------0-0-0-------0/0---------0---0---0------------|

B |------1-1-1-3-1-1-3/5--3-1-3--1---3---1------------|

G |------0-0-0-0-0-0-0/0--0-0-0--0---0---0------------|

D |------2---2-2-2-2-2/4--4-2-2--2---2---2------------|

A |------3-----------3/5--5-3-3--3---3---3------------|

E |---------------------------------------------------|

         C    C9 C  C9/D9 D C C9 C  C9   C

 Cause I love you              Need you so

         C    C9 C  C9/D9 D C C9 C  C9   C

   And I want you                    Aaah, babe donít let me go

 

 

 

The Grass (page 2)

 

 

 E |------------3-3-x-x-3-3-x-----------3-3-x-x-3-3-x--------------|

 B |------0h1h3-3---x-x-3-3-x-----0h1h3-3---x-x-3-3-x--------------|

 G |--0h2-------0---x-x-0-0óx-0h2-------0---x-x-0-0-x--------------|

 D |------------------x-0-0---------------------0-0----------------|

 A |--------------------2-2---------------------2-2----------------|

 E |--------------------3-3---------------------3-3----------------|

 

 E |--3p1p0---------------------3-x-x-3-3-x-x-3-3-x-x--------------|

 B |--------3p1p0---------------3-x-x-3-3-x-x-3-3-x-x--------------|

 G |--------------4p2p0-------0-0-x-x-0-0-x-x-0-0-x-x--------------|

 D |--------------------0h2h4-------x-0-0-x---0-0-x----------------|

 A |----------------------------------2-2-----2-2------------------|

 E |----------------------------------3-3-----3-3------------------|

 

E |--3p1p0-3--5----------------------------3-x-x-3-3-x-x-------------3-x-x-3-3|

B |----------------------3p1p0-------------3-x-x-3-3-x-x-------------3-x-x-3-3|

G |-------------0h2h4-0--------2-4-------0-0-x-x-0-0-x-x-----------0-0-x-x-0-0|

D |--------------------------------0h2h4-------x-0-0-x--------0h2h4------x-0-0|

A |----------------------------------------------2-2-----0h3h4-------------2-2|

E |----------------------------------------------3-3-----------------------3-3|

 

 

G

Love the way you stomp and move

     G+2             Gvar                **F/F#/G

your gonna make this room     spin round and groove

G

Like the summer noon day sun

G+2       Gvar                   **F/F#/G  

Drink the honey      Its fun for everyone

 

A            C         G   

Oooh baby, I ainít got nothing left to lose

A            C         G   

Aaah baby, youíre the only one that I would choose

 

         C    C9 C  C9/D9 D C C9 C  C9   C

 Cause I love you              Need you so

         C    C9 C  C9/D9 D C C9 C  C9   C

   And I want you                    Aaah, babe donít let me go

 

Ginv1

Donít let me go

Ginv2

Donít let me go

Ginv3

Oh oh

Ginv4

Oh oh