Reflections by:Jay Mage Majusiak

 

(Pick up) |: (begin repeating riff)

E |-------|----7------------------7---------------|

B |--9----|----------9---10---9-------9-----------|

G |-----9-|---------------------------------------|

D |-------|---------------------------------------|

A |-------|---------------------------------------|

E |--0----|-0-----0----0----0---0---0----0--------|

 

                                       (end repeat) :|

E |--0-------7-----------------------------------|

B |-----9--------9---10p 9--10/12--10-9-10-9-----|

G |-------------------------------------------9--|

D |----------------------------------------------|

A |----------------------------------------------|

E |----0---0---0---0---0---0-----0----0----0-----|

|: rep2 begin

|------------------------------------------------|

|------------------7----------7/9----7ó----------|

|------------9-----------9--------------9/11--9--|

|-----11-----------------------------------------|

|------------------------------------------------|

|--0------0-----0-----0-----0-----0-----0-----0--|

                                        rep2 end :|

|---------------------7-----------------7--------|

|---------9-----------------9--------------9-----|

|---------------9-----------------9-----------9--|

|--11--------------------------------------------|

|------------------------------------------------|

|------0-----0-----0-----0-----0-----0-----0-----|

     |: rep3 begin

|----|-----------------------------------------------|

|--9-|-------9-----------9-----------9-----------9---|

|----|-9-----------9-----------8-----------8---------|

|----|-----------------------------------------------|

|----|-----------------------------------------------|

|--9-|----0-----0-----0-----0-----0-----0-----0------|

     1)Now ---------           I -----------

     2)Fall --------           ing ----------

     3)On ----------           the ---------

     4)That ---------          Iíve ----------

                                           rep3 end :|

|----------------------------------------------------|

|-----------9-----------9-----------9-----------9----|

|-----6-----------6-----------6-----------6----------|

|----------------------------------------------------|

|----------------------------------------------------|

|--0-----0-----0-----0-----0-----0-----0-----0-----0-|

  1) See ----------

  2) Leaves ----------

  3) Ground ----------

  4) Found ----------